Rolling in the Deep 的吉他谱

//v.com/v_show/id_XMzAyMDM1NzAw.youkuhttp
ya20906 问题未开放回答
推荐于2016-08-30 03:03:57 最佳答案

《Rolling in the Deep》吉它谱

《Rolling in the Deep》是由英国女歌手阿黛尔·阿德金斯演唱的一首流行灵魂歌曲,歌曲的歌词和简谱由阿黛尔和保罗·伊普沃斯合作编写,音乐制作由保罗·艾普沃斯负责。这首歌收录在阿黛尔的第二张录音室专辑《21》中,并作为专辑的首波主打单曲由XL唱片公司于2010年11月29日发行。

《Rolling in the Deep》在美国售出超过八百三十万份,并获得美国唱片工业协会八倍白金唱片认证。歌曲在美国公告牌百强单曲榜中获得七周冠军,并登上2011年公告牌年度单曲榜冠军巨峰。歌曲获得了第54届格莱美奖年度最佳歌曲、年度最佳制作、最佳短篇音乐录像带三项奖项的肯定。

dolphinMr817 | 影视爱好者

擅长: 明星

其他回答

.  外站找的.., no ones and zeros.
  {Gtr 1
  Cm Gm Bb Gm Bb
  e|-------------------------------------------------|
  B|-------------------------------------------------|
  G|-------------------------------------------------|
  D|-------------------------------------------------|
  A|--1010101010101010-105555555-58888888-85555-888--|
  E|--8-8-8-8-8-8-8-8--8-3333333-36666666-63333-666--|
  ... ......。。... So if you wanted to do a cover. palm-mute
  | b bend
  | ~ let ring

  All guitars tuned EADGBe
  {Gtr 1 - acoustic
  {Gtr 2 - electric

  Pretty easy song...

  The scars of your love remind me of us
  G# Bb Gm
  e|-------------------------------------------|
  B|-------------------------------------------|
  G|-------------------------------------------|
  D|--6~--------------8~----------8-------5~---|
  A|--6~--------------8~----------8-------5~---|
  E|--4~--------------6~------------------3~---|

  They keep me thinking that we almost had it all
  G# G#
  e|----------------------------------------------|
  B|----------------------------------------------|
  G|----------------------------------------------|
  D|-----------6~---------------------------8-6~--|
  A|-----------6~---------------------------8-6~--|
  E|-----------4~---------------------------6-4~--|

  The scars of your love, they leave me breathless
  Bb Gm
  e|----------------------------------------|
  B|----------------------------------------|
  G|----------------------------------------|
  D|--6-------68~---------------------8-5~--|
  A|--6-------68~---------------------8-5~--|
  E|--4-------46~---------------------6-3~--|

  I can't help feeling
  Gm
  e|---------------------|
  B|---------------------|
  G|------3--------3333--|
  D|-----------55555555--|
  A|-----------55555555--|
  E|---------------------|

  [Chorus] Again, no guitar. But you could strum this if you wanted to. Repeat as necessary.
  Cm Bb G# G# Bb
  e|-------------------------------------------|
  B|-------------------------------------------|
  G|--55555555--33333333--55555555-------------|
  D|--55555555--33333333--66666666--6666-8888--|
  A|--33333333--11111111--66666666--6666-8888--|
  E|--33333333--11111111--44444444--4444-6666--|

  Cm Bb G# G# Bb
  e|-------------------------------------------|
  B|-------------------------------------------|
  G|--55555555--33333333-----------------------|
  D|--55555555--33333333--66666666--6666-8888--|
  A|--33333333--11111111--66666666--6666-8888--|
  E|--33333333--11111111--44444444--4444-6666--|

  You know the song.. just go to verse, pre-chorus, then this.

  [Chorus 2] Pretty much the same as the first chorus, but the order of the chords change
  at the end of it.
  Cm Bb G# G# Bb
  e|-------------------------------------------|
  B|-------------------------------------------|
  G|--55555555--33333333--55555555-------------|
  D|--55555555--33333333--66666666--6666-8888--|
  A|--33333333--11111111--66666666--6666-8888--|
  E|--33333333--11111111--44444444--4444-6666--|

  Cm Bb G# G# Bb
  e|-------------------------------------------|
  B|-------------------------------------------|
  G|--55555555--33333333-----------------------|
  D|--55555555--33333333--66666666--6666-8888--|
  A|--33333333--11111111--66666666--6666-8888--|
  E|--33333333--11111111--44444444--4444-6666--|

  G# Bb Cm Bb
  e|------------------------------------------|
  B|------------------------------------------|
  G|--55555555------------55555555--33333333--|
  D|--66666666--88888888--55555555--33333333--|
  A|--66666666--88888888--33333333--11111111--|
  E|--44444444--66666666--33333333--11111111--|

  G# Bb
  e|----------------------------------------|
  B|----------------------------------------|
  G|----------------------------------------|
  D|--66666666-66666666--88888888-88888888--|
  A|--66666666-66666666--88888888-88888888--|
  E|--44444444-44444444--66666666-66666666--|

  [Bridge/Verse 3] The palm-muted part doesn't come in for this verse. Instead, there's
  some solo guitar that, for the most part, is incredibly hard to hear. I tabbed what I
  could accurately make out.

  Throw your soul through every open door
  e|---------------------|
  B|---------------------|
  G|---------------------|
  D|---------------------|
  A|---------------------|
  E|---------------------|

  Count your blessings to find what you look for
  {Gtr 2
  e|-----------------------------------------|
  B|---------------------------11b13---------|
  G|---------------------------10b12---------|
  D|-----------------------------------------|
  A|-----------------------------------------|
  E|-----------------------------------------|

  Turn my sorrow into treasured gold
  e|---------------------|
  B|---------------------|
  G|---------------------|
  D|---------------------|
  A|---------------------|
  E|---------------------|

  You pay me back in kind and reap just what you sow
  {Gtr 2
  e|-------------------------------------------------|
  B|---------------------------------8--11--13--13~--|
  G|--------------------------8--10-------------12~--|
  D|-------------------------------------------------|
  A|-------------------------------------------------|
  E|-------------------------------------------------|

  After this the guitar cuts out altogether for a bit. Once the chorus picks up again,
  repeat the chords for the first chorus until you end on this.

  e|-------|
  B|-------|
  G|---5---|
  D|---5---|
  A|---3---|
  E|-------|

  And that's it. God bless.

  再给你一个~~
  Am
  There's a fire starting in my heart,
  F G
  Reaching a fever pitch and it's bringing me out the dark

  Am
  Finally, I can see you crystal clear.

  Go ahead and sell me out and I'll lay your ship bare.
  See how I leave, with every piece of you
  Don't underestimate the things that I will do.
  Am
  There's a fire starting in my heart,
  G
  Reaching a fever pitch and it's bringing me out the dark

  F G
  The scars of your love, remind me of us.
  em F
  They keep me thinking that we almost had it all
  F G
  The scars of your love, they leave me breathless
  em E
  I can't help feeling...

  Am C
  We could have had it all... (I wish you, never had met me)...
  F(hold) G
  Rolling in the Deep (Tears are gonna fall, rolling in the deep)
  Am C
  Your had my heart... (I wish you)... Inside of your hand (Never had met me)
  F(hold) G
  And you played it... (Tears are gonna fall)... To the beat (Rolling in the deep)

  Am
  Baby I have no story to be told,
  E(ddd) G(ddd)
  But I've heard one of you and I'm gonna make your head burn.
  Am
  Think of me in the depths of your despair.
  E(ddd) G(ddd)
  Making a home down there, as mine sure won't be shared.

  F G
  The scars of your love, remind me of us.
  em F
  They keep me thinking that we almost had it all
  F G
  The scars of your love, they leave me breathless
  em E
  I can't help feeling...

  Am C
  We could have had it all... (I wish you, never had met me)...
  F(hold) G
  Rolling in the Deep (Tears are gonna fall, rolling in the deep)
  Am C
  Your had my heart... (I wish you)... Inside of your hand (Never had met me)
  F(hold) G
  And you played it... (Tears are gonna fall)... To the beat (Rolling in the deep)

  Am C
  We could have had it all
  F G
  Rolling in the Deep
  Am
  Your had my heart Inside of your hand
  G
  And you played it To the beat

  Am (hold)
  Throw yourself through ever open door (Whoa)
  Count your blessings to find what look for (Whoa-uh)
  Turn my sorrow into treasured gold (Whoa)
  And pay me back in kind- You reap just what you sow.

  Am C
  (I wish you... Never had met me)
  F G
  We could have had it all (Tears are gonna fall... Rolling in the deep)
  Am C
  We could have had it all yeah ( I wish you... never had met me)
  F(Hold)
  It all. (Tears are gonna fall)
  G
  It all, It all (Rolling in the deep)

  Am C
  We could have had it all... (I wish you, never had met me)...
  F G
  Rolling in the Deep (Tears are gonna fall, rolling in the deep)
  Am C
  Your had my heart... (I wish you)... Inside of your hand (Never had met me)
  F G
  And you played it... (Tears are gonna fall)... To the beat (Rolling in the deep)

  Am C
  We could have had it all... (I wish you, never had met me)...
  F (hold) G
  Rolling in the Deep (Tears are gonna fall, rolling in the deep)
  Am C
  Your had my heart... (I wish you)... Inside of your hand (Never had met me)
  F
  But you played it
  You played it.
  You played it.
  G End on Am
  You played it to the beat.
...................... you': Standard

  | . I will say though that
  the timing is a little weird..。可以么

  Tuning......:)

  I posted the lyrics above the tablature to help show the timing for everything;s no guitar here. (The bass gets louder to make up for
  it.) This follows the piano....

  [Verse] Repeat this as necessary... Again, just 10s here....;d play this. Just play along with the song to get the hang of it.

  [Intro] Those are 10s.
  {Gtr 1
  Cm
  e|------------------------------------|
  B|------------------------------------|
  G|------------------------------------|
  D|------------------------------------|
  A|--10101010101010101010101010101010--|
  E|--8-8-8-8-8-8-8-8-8-8-8-8-8-8-8-8---|
  , but no one had tabbed it out yet so here it is................, but in
  the end you're going to need to play along with the song.......

  [Pre-Chorus] Technically, there'
展开
本回答被提问者采纳
286726549儿儿 | 推荐于2016-12-01 17:46:02
评论

为您推荐:

×

类别

我们会通过消息、邮箱等方式尽快将举报结果通知您。

说明

0/200

提交
取消