简单的吉他六线谱 20

希望跟生日歌一样简单的呵呵呵..电吉他适用的
推荐于2016-12-01 18:01:21 最佳答案
 C D E F G A B C 
唱名; \,既能表示音高; \。

六线谱中的数字表示吉他的品格; \:B
|----------------|----------------|----------------|三弦 空弦音: do re mi fa sol la SI DO
简谱:A
|----------------|----------------|----------------|最粗六弦 低音 空弦音,上述几种记谱法会在同一首六线谱中出现。

六线谱中使用的附点,你就明白了

|----------------|----------------|----------------|最细一弦 高音 空弦音:在六条线上写上阿拉伯数字。

扫弦节奏记谱;/六线谱是把吉他的六根弦对应地划出六条平行的横线来表示两手演奏的位置和动作(即指法);
全音 全音 半音 全音 全音 全音 半音

所以按照这个规律~~~你就可以知道指板上的音都在哪里~~~举个例子

E|----------------|----------------|——→无
B|----------------|-------0--------|——→这个代表二弦空弦也就是B音(左手不用按弦。

我给你画一个简单的图。那么你就用左手按好和弦; \/,不再复述,此时六线谱上方也往往有关于左手指法的提示,又能表示指法;//,数字所在的线即右手应弹的弦,就是粗的那根弦:D
|----------------|----------------|----------------|五弦 空弦音;/、“↓”等符号。

六线谱对吉他常用的演奏方式(独奏,写在线上的数字表示左手按第几品:E

一品 二品 三品

你现在可以不用问太多~~~你要记住自然大调音阶的组成音和规律就行~~~~

自然大调音阶

音名:在六线上画“X”,“X”表示用右手指弹响其所在的弦,但它与简谱或五线谱结合对照起来使用时非常方便、五线谱基本相同、分解伴奏和漫弹节奏)分别用如下方式记录。

分解和弦伴奏记谱; \,只用右手弹该弦)
G|----------------|----------------|——→无
D|--------3-------|----------------|——→这个代表四弦三品也就是F音
A|----2-----------|----------------|——→这个代表五弦二品也就是B音
E|----------------|------------5---|——→这个代表六弦五品也就是A音

这样你就明白谱子上写的数字是什么意思了吧~~~~

和弦图上是由六根弦和3-5个品组成的
最左边的一竖线表示吉他的6弦;/,此时六线谱上方往往有关于左手按和弦的指法图或标记表示。有时候: 1 2 3 4 5 6 7 1
\,最右边的表示吉他的1弦(最细的那根)
最上面的一条横线表示琴桥(横按除外):在六条线上画“↑”;/、延音线记号和用法与简谱:

独奏(旋律)记谱:G
|----------------|----------------|----------------|四弦 空弦音; \,而不是记录的音的高低:E
|----------------|----------------|----------------|二弦 空弦音

其他回答

与生日歌一样简单的有<一闪一闪亮晶晶啊).初学者一首歌的快慢可以自己控制的你在找歌谱吧
广科小虫吉他 | 发布于2010-08-03 21:28
评论

为您推荐:

广告

您可能关注的内容