求oasis《the importance of being idle》吉他谱 50

要txt格式的
问题暂时关闭
发布于2010-07-30 11:04 最佳答案
 Am E (x3) (listen to the song to figure out this part)
  Am E Am
  Am

  Am Fmaj7
  i sold my soul for the second time
  C B11 E
  cos the land;s not in it, are you lazy"..., are you crazy., it don's a bed beneath the stars that shine
  Dm Am
  i's got a limit
  G E
  i can't get a life if my heart't pay me
  Am Fmaj7
  i begged my landlord for some more time
  C B11 E
  he said "t mind
  Dm Am
  as long as there'boy  要别的格式的话说一声

  Oasis - The Importance Of Being Idle (Noel Gallagher)
  Don'.

  (repeat intro)
  Fmaj7 Am

  Am Fmaj7
  i lost my faith in the summertime
  C B11 E
  cos it don'
  Am Fmaj7
  it ain'.;s not in it;t mind
  Dm Am
  as long as there's got a limit
  G E
  i can'm just lazy

  Dm Am
  i don't Believe The Truth (2005)

  Chords used;s got a limit
  G E
  i can't mind
  Dm Am
  as long as there', a man'

  Dm Am (you can play barre chords here)
  but i don't get a life if my heart'
  Am Fmaj7
  my best friend called me the other night
  C B11 E
  he said ".;t get a life if my heart'son;ll be fine
  Fmaj7
  if you give me a minute;t no place to be killing time
  C B11 E
  i guess i'm not complaining
  Am Fmaj7
  i begged my doctor for one more line
  C B11 E
  he said ". words fail me":

  Am Fmaj7 C B11 E Dm G
  e|--0---0---0---0---0---1---3---|
  B|--1---1---1---0---0---3---3---|
  G|--2---2---0---2---1---2---0---|
  D|--2---3---2---1---2---0---0---|
  A|--0---3---3---2---2---X---2---|
  E|--0---0---0---0---0---X---3---|

  intro.;ll be fine
  Fmaj7
  if you give me a minute.;son;
  Am Fmaj7
  my girlfriend told me to get a life
  C B11 E
  she said "man.

  (instrumental)
  Am Fmaj7 C B11-E

  e-|------------|--------------|-------------|
  B-|------------|13-12---------|8-10-8-------|
  G-|7-9-7-------|------14-12---|--------9-8-9| (x2)
  D-|-------10-7-|------------14|-------------|
  A-|------------|--------------|-------------|
  E-|------------|--------------|-------------|

  e-|----------------------------|
  B-|15(B)-15(B)-15(B)-13----13--|
  G-|---------------------14-----| (x2)
  D-|----------------------------|
  A-|----------------------------|
  E-|----------------------------|

  e-|------15------------------|
  B-|15(B)----15(BR)-13----13--|
  G-|-------------------14-----| (x1)
  D-|--------------------------|
  A-|--------------------------|
  E-|--------------------------|

  e-|--------------------------|
  B-|15(B)-15(B)-15(B)-13----13|
  G-|---------------------14---| (x1)
  D-|--------------------------|
  A-|--------------------------|
  E-|--------------------------|

  e-|------15--------------------|
  B-|15(B)----15(BR)-13----13----|
  G-|-------------------14-------|(x1)
  D-|----------------------------|
  A-|----------------------------|
  E-|----------------------------|

  Dm Am
  i don', a man't stop raining
  Am Fmaj7
  the sky all day is as black as night
  C B11 E
  but i'?"s a bed beneath the stars that shine
  Dm Am
  i', the bills are waiting"s a bed beneath the stars that shine
  Dm Am
  i's not in it, a man'll be fine
  Fmaj7
  if you give me a minute

其他回答

Son - words fail me"t mind
As long as there',
a man',
if you give me a minute:Oasis 歌曲;t no place
to be killing time
I guess I',
a man's a bed
beneath the stars that shine
I'll be fine;Man - are you crazy"t mind
As long as there't get a life
if my heart':The Importance of Being Idle
下载《The Importance of Being Idle》到手机

I sold my soul for the second time
't get a life
if my heart',
if you give me a minute;s got a limit
I can't stop raining
The sky all day is
as black as night
But I'Cos the man He don'm not complaining
I begged my doctor for
one more line
He say
"re lazy"s a bed
beneath the stars that shine
I'
My girlfriend told me to
get a life
She said "t get a life
if my heart', the bills are waiting"ll be fine;t pay me
I begged my landlord
for some more time
He said
"s got a limit
I can',
a man't mind
As long as there'll be fine;Son;s got a limit
I can',
if you give me a minute;
But I don'
My best friend called me
the other night
He said "m just lazy

BUT I don'
It ain'Boy - you's not in it
Hey Hey

I lost my faith
in the summer time
'Cos it don's a bed
beneath the stars that shine
I's not in it
Hey Hey

I don'歌手
展开
张雨荷12 | 发布于2010-07-30 09:57
评论

为您推荐: